# A B C D E F G H I J K L M N O P Q R S T U V W X Z
IAYTO.ru , .
    # A B C D E F G H I J K L M N O P Q R S T U V W X Z

- yc py - yc py IAYTO.ru. - yc py IAYTO.ru. - yc py .




- yc py


yc py

Intro: < C riff>
1|---------------
2|-----5---------
3|-----5--------- } 4
4|-----5------5-- /
5|-2h3----------- /
6|--------4h5---- /

C F C riff
Verse1: o c??????
C F C riff
??????? ?????.
C(III) F C riff
o poxao,
C(VIII) F(V) C riff
Cao aao.

Cm
Chorus: yc py Ha-a-a-a a a-a
Cm
yc py Ha-a-a-a a a-a
Fm
yc py Ha-a-a-a a a-a

C C
2|-----------1----1--------1----------3-------1--------1---
3|-------3/4----0----0---0---------------4-2-----0---0-----
4|---------------------3----2----------------------3-----2-
py po e

G# (G# G)?
1|----------4------------------
2|-----------4-----------------
3|---------5--5----------------
e ep e y ac ec

C riff
yc py [2|-6-6-6-6-5- -5-5-5-5-5-
3|-5-5-5-5-5- -7-7-7-7-5-]

Verse2: e oopa,
o py coco,
He eoac, -
ece oc.

Chorus

Bridge: < Am Am>
1|-8---7-5----- 4|-10--9-7-----
2|---------5--- 5|---------7---

Am Dm Am Dm Am Dm Am Dm
Verse3: c a eao, [2|-6-6-6-6-5- 3|-7-7-7-7-5-]
Am Dm Am Dm Am Dm Am Dm
c a eao. [3|-7-7-7-7-5--------4-4-4-4-5-]
Am Dm Am Dm Am Dm Am Dm
o e a ea? [2|-6-6-6-6-5- 3|-7-7-7-7-5-]
Am Dm Am Dm Am Dm G# A# Cm
Pae o ceo [3|-7-7-7-7-5- 2|-9----11----------13-]
ea yc py

Chorus } 2