# A B C D E F G H I J K L M N O P Q R S T U V W X Z
IAYTO.ru , .
    # A B C D E F G H I J K L M N O P Q R S T U V W X Z

Queen - Dont Stop Me Now Queen - Dont Stop Me Now IAYTO.ru. Queen - Dont Stop Me Now IAYTO.ru. Queen - Dont Stop Me Now .




Queen - Dont Stop Me Now

------------------------------------------------------------------------------
---------10v-------------10v--10v----------------------------b11~-10----------
-12b14---------14r_12p10------------14r12_p10-12-10-9-10v-------------12--10--
------------------------------------------------------------------------------
------------------------------------------------------------------------------
------------------------------------------------------------------------------

|-----------------------------------|
|-----------------------------------|
|-12b14---b13--b14--b13--14r12------|
|------------------------------10---|
|-----------------------------------|
|-----------------------------------|

|-----------------------------------------------------|
|-11b13v---13r11p10-b13---b13---13r11p10-11-10----10--|
|----------------------------------------------12-----|
|-----------------------------------------------------|
|-----------------------------------------------------|
|-----------------------------------------------------|
*
|------------------------------------------------------------|
|-11--10-----------------------------------------------------|
|----------12---10---12b14--12--b14--12--b14--12--14r12p10v--|
|------------------------------------------------------------|
|------------------------------------------------------------|
|------------------------------------------------------------|

|---------------------------------------|
|---------------------------------------|
|---------------------------------------|
|---------------------------------------|
|-10--12r10-8---8---10/12--10--10--8----|
|------------------------------------10-|

|-----------------------------------------------------|
|-----------------------------------------------------|
|-10h12p10----10---10h12p10----10---10h12p10----10v~~|
|----------12---------------12---------------12-------|
|-----------------------------------------------------|
|-----------------------------------------------------|

|------------------------|-20-20-20-20-20-20-20-20-|
|-b15-b15-b15-b15-b15v~~-|-22-22-22-22-22-22-22-22-|
|------------------------|-------------------------|
|------------------------|-------------------------|
|------------------------|-------------------------|
|------------------------|-------------------------|

* on the Live Killers version:
|-------------------------------------------------|
|-13p10h13p10-------------------------------------|
|-------------12p10h12p10-12p10-----------12-10---|
|-------------------------------12---10-----------|
|-------------------------------------------------|
|-------------------------------------------------|
Transcribed by Pinter Denes

Lyrics and chords:

F Am Dm
Tonight, Im gonna have myself a real good time

Gm C F F7 Bb
I feel alive, and the world, turning inside out, yeah

Gm7 D7 Gm F C Gm
and floating around in ecstasy, so dont stop me now

Gm F C Gm7 C
Dont stop me cause Im having a good time, having a good time.

F Am Dm
Im a shooting star leaping through the sky, like a tiger

Gm C
defying the laws of grafity

F Am Dm
Im a racing car, passing by, like lady Godiva

Gm C F
Im gonna go, go, go,theres no stopping me

F7 Bb Gm7
Im burning through the sky, yeah, 200 degrees,

D7 Gm
thats why they call me Mister Fahrenheit

D7 Gm
Im travelling at the speed of light.

Bb F Bb G7 C
I wanna make a supersonic man out of you

F Gm Am Dm Gm7 C
Dont stop me now, Im having such a good time, Im having a ball

F Gm Am Dm Gm7 D7
Dont stop me now, if you wanna have a good time, just give me a call

Gm F C Gm7
Dont stop me cause Im having a good time
(x13141)
Gm F C Gm C Bbm7sus4
Dont stop me, yes Im having a good time, I dont want to stop at all
Im a rocket ship, on my way to mars, on a collision course
I am a satellite, Im out of control
Im a sexmachine, ready to reload, like an atombomb
about to oh, oh, oh, oh, to explode
Im burning through ...N.C.

Dont stop me, dont stop me, dont stop me, hey hey hey
Dont stop me, dont stop me, oh oh oh
Dont stop me, dont stop me, have a good time, good time
Dont stop me, dont stop me, Ahhhhh

(Guitar) = verse

Im burning through ...
Dont stop me now ...

Chords transcribed by Michael Bauer,
revised by Pinter Denes