# A B C D E F G H I J K L M N O P Q R S T U V W X Z
IAYTO.ru , .
    # A B C D E F G H I J K L M N O P Q R S T U V W X Z

Metallica - Sweet Amber Metallica - Sweet Amber IAYTO.ru. Metallica - Sweet Amber IAYTO.ru. Metallica - Sweet Amber .




Metallica - Sweet Amber


: C G C F A D
( System of a down)
Intro
D--------------------------------------------------------------
A--------------------------------------------------------------
F-5/7--5h7--10b12r10-5/7--5h7--10b12r10--5/7--5h7--10b12r10-5/7
C--------------------------------------------------------------
G--------------------------------------------------------------
C--------------------------------------------------------------

W/Distortion
Verse 13 ࠠ :
D-----------------------|----------------------
A-----------------------|----------------------
F-----------------------|----------------------
C-10/12-------10/12-----|-10/12----------------
G-10/12-------10/12-----|-10/12----------------
C-10/12-00-00-10/12br14-|-10/12-00-00-00-00-00-
** ** ** ** ** ** **

Verse 23 ࠠ:
D-----------------------|----------------------
A-----------------------|----------------------
F-----------------------|----------------------
C-10/12-------10/12-----|-10/12----------------
G-10/12-------10/12-----|-10/12----------------
C-10/12-------10/12-14b-|-10/12-00-00-00-00-00-

Then she took my head.....
Bridge 1 (wah wah pedal)
D-------------------------------
A-8/15--------8/13----8/11-8/10-
F-------------------------------
C-------------------------------
G-------------------------------
C-------------------------------

Bridge 2
D-------------------------
A-------------------------
F-------------------------
C-----0-----0-----3-3-3-3-
G-----0-----0-----3-3-3-3-
C-0-0-0-0-0-0-0-0-3-3-3-3-

Using what i want........
Chorus 1
D----------------------
A----------------------
F----------------------
C-0-------2-3------8-7-
G-0-------2-3------8-7-
C-0-------2-3------8-7-

How sweet are you....
Chorus 2
D----------------------
A----------------------
F----------------------
C-------3h5--------3p0-
G-------3h5--------3p0-
C-0-0-0-3h5--0-0-0-3p0-
* * * * * *
Verse 3
D-------------------------------------------------------------
A-------------------------------------------------------------
F-------------------------------------------------------------
C-------------------------------------------------------------
G-------------------------------------------------------------
C-12-0000-12-0000-12-0000-15-12-14-0000-14-0000-14-0000-20-19-
**** **** **** **** **** ****

Verse 4
D--------------------------------------------------------
A--------------------------------------------------------
F--------------------------------------------------------
C-0------0------0------3-0-2------2---------------------- play once
G-0------0------0------3-0-2------2----------------------
C-0-0000-0-0000-0-0000-3-0-2-0000-2-0000-0-0-1-0-0-0-1-0-
**** **** **** **** ****

D--------------------------------------------------------
A--------------------------------------------------------
F--------------------------------------------------------
C-0------0-----------------2------2---------------------- play once
G-0------0-----------------2------2----------------------
C-0-0000-0-0-0-1-0-0-0-1-0-2-0000-2-0000-0-0-1-0-0-0-1-0-
**** **** ****

D--------------------------------------------------------
A--------------------------------------------------------
F--------------------------------------------------------
C-0-1-0-0------------------2------2---------------------- play twice
G-0-1-0-0------------------2------2----------------------
C-0-1-0-0--0-0-1-0-0-0-1-0-2-0000-2-0000-0-0-1-0-0-0-1-0-
**** ****