# A B C D E F G H I J K L M N O P Q R S T U V W X Z
IAYTO.ru , .
    # A B C D E F G H I J K L M N O P Q R S T U V W X Z

Metallica - Bleeding Me Metallica - Bleeding Me IAYTO.ru. Metallica - Bleeding Me IAYTO.ru. Metallica - Bleeding Me .




Metallica - Bleeding Me

|-------------------------------------------------------------------------|
|.-----------------------------------------------------------------------.|
|----------p------------------------------------p-------------------------|
|---------5-0------------------5---------------5-0------------------------|
|.-----/7------7------7------5---7----------/7------7-----7--h--4--52--.|
|---0--------------0----0--5--------------0-------------0----0-5----43---|
sl. sl. sl.
|-------------------------------------------------------------------------|
|------------------------------------------------------------------------.|
|----------p------------------------------------p-------------------------|
|---------5-0------------------5---------------5-0--~~~-------------------|
|------/7------7------7------5---7----------/7------5------5-------5-----.|
|---0--------------0----0--5--------------0-------------3----32-----2----|
sl. sl. sl.
Fill 1:
|---------------------------------------|
|--------------1/2----------------------|
|-----------h---^-----------------------|
|----------5-7--7-----------------------|
|-----/7---------------5--------5--~~~--|
|--0----------------3-----32------2----|
sl.

RiffA:Sounds something like this
|-----------------------------------------------|
|.12-----------10--------8---10----------------.|
|-----------------------------------------------|
|--9------------7--------5----7-----------------|
|.---------------------------------------------.|
|-----------------------------------------------|

RiffB:Slowly,Let Ring.9 on 4th string is optional.
|--0----0----0----0---0---0-------------|
|.-8----8----8----8---7---8------------.|
|--9----9----9----9---9---9-------------|
|-----9----9----9-----------9-----------|
|.-------------------------------------.|
|---------------------------------------|

|-----------------------------12--------------------------------------7--|
|.----------------------------12----------------------------------8---7-.|
|-------------------------12-----------------------------------9------9--|
|---------------------14-------------------------------------------------|
|.----------------------------------------------------------------------.|
|------------------------------------------------------------------------|
Im Diggin My Way......... Im Diggin My Way to something...
|--------------------------------------------12---|
|.-------------------------------------------12--.|
|----------------------------------------12-------|
|------------------------------------14-----------|
|.-----------------------------------------------.|
|-------------------------------------------------|
Im Diggin My Way to Something Better....

Pre-Chorus:Guitar1
|-----------Full--------------------------------------------------------|
|-------------^----------------------------Full----Full-----------------|
|------------12-----------7--------------7--^--------^---p--------------|
|--------12-----------/9-----7--------5-----7--------7--7-5------h------|
|----14---------------------------/7-------------------------7--5-7-----|
|-----------------------------------------------------------------------|

Pre-chorus:Guitar2 Stop here on repeat and play 2nd part
|-----------------------------------------------------------------------|
|.----------------------------------8-----------------------8-----------|
|---------------------------7--7----7---7-----------7--7----7---7-------|
|--2--2--x--2---2----x--x---7--7-x--7---7----x--x---7--7-x--7---7--x--x-|
|.-2--2--x--2---2----x--x---5--5-x--5---5----x--x---5--5-x--5---5--x--x-|
|--0--0--x--0---0----x--x--------x-----------x--x--------x---------x--x-|

Skip this 2nd time| (2nd part)Play seconed time:
|-----------------------|-----------------------------|
|----------------------.|-----------------------------|
|--2--2--x--2---2-------|--2--2-----2-----------------|
|--2--2--x--2---2-----5.|--2--2--x--2--2--------------|
|--0--0--x--0---0---7---|--0--0--x--0--2-----~~~~~~~--|
|-----------------------|--------x-----0---0--3-------|

Chorus:
|--------------------------------------------------------------------------
|
|.------------------------------------------------------------------------.
|
|-----------------------h-------------------h------------------------------
|
|--/9---9---9---x--5--5-7---7---7--x--5--5-7---7--7--x------h---------x-
|
|.-/7---7---7---x--5----7---5---5--x--5----5---5--5--x--5--5-7--7--7-x.
|
|----------------x-------------------x------------------x--5----5--5--5-x-
|

Every time except 1st,Play this after each chorus line:
|------------|
|------------|
|------------|
|------------|
|-----~~~~---|
|--0--3------|

Seconed Main Riff:
|----------------------------------------------------------|
|----------------------------------------------------------|
|---h--------------------------------------------p----h----|
|--7-9--------9----------9----------9-----h----10-9--7-9---|
|--7----------7----------7----------7----7-10----------7---|
|--0---0--0---0---0--0---0---0--0---0--0-------------------|
pm.... pm.... pm...

*Heres That Kick Ass Solo!:
|--^------^----^----^----^------^--^-~~~~~~~~|--------------------------|
|--5------8---10---12---15-----15-15---------|--------------------------|
|--7-----10---12---14---17-----17-17---------|-------------12-12--------|
|-Full--Full-Full-Full-Up&Down---------------|-------------12-12--~~~~--|
|--------------------------------------------|-12-12-14-14--------14----|
|--------------------------------------------|--------------------------|
*Only bend bottoms Notes Full pm..

|-----------------------------------------------------------------------|
|-----------------------------------------------------------------------|
|-12--------h----~~~~--14--12---------x--x-x-----~~~~-------------------|
|----12--(12)14--14-----------14--12--x--x-x-12--14---14-12---(12)------|
|-----------------------------------------------------------------------|
|-----------------------------------------------------------------------|

|------------------1/4--------------------------------------------------|
|-------------------^----------1/2--------------------------------------|
|------------------12----x--x---^---~~~--12--~~~~~----------~~~-14------|
|--14--14--14--12--12----x--x--12---14---14--12--(12)--14--14---14------|
|------------------------------------------------------------------12---|
|---------------------12------------------------------------------------|

|--------------^-------------^------------------------------------------|
|----------x--14---------x--14--12--------------------------------------|
|--12-~~~~-x--14---12----x--14--12-------------h------------------------|
|-----14------1/2-----14----1/2----14--12----12-14--12------------------|
|-----------------------------------------14-----------14---------------|
|-----------------------------------------------------------------------|

|-15--12----12---------------------------Full---------------------------|
|--------15----15--12----12----------------^-------------------------p--|
|---------------------14----14--12----12--14-----14-(Bring-Down-Here)-14|
|----------------------------------14---Hold Bend-----------------------|
|-----------------------------------------------------------------------|
|-----------------------------------------------------------------------|
h p
|-----------------------------12-15-12---12--^--12----------^--12---p---|
|-------------------------------------15----15-----15--12--15-----15-12-|
|----12--14----------12--~~~~~-------------Full-----------Full----------|
|-14----------14--12-----14---------------------------------------------|
|-----------------------------------------------------------------------|
|-----------------------------------------------------------------------|

|---^--12---p-------------p--------------p--------------p------------p--|
|--15-----15-12--12--12-15-12--12--12--15-12--12--12--15-12-----12-15-12|
|------------------------------------------------------------14---------|
|-----------------------------------------------------------------------|
|-----------------------------------------------------------------------|
|-----------------------------------------------------------------------|

|----------p-------h--p--------h--p--------p--------h--p-------h--p-----|
|-----12--15-12---12-15-12---12-15-12----15-12----12-15-12---12-15-12---|
|--14----------14---------14----------14-------14----------14---------14|
|-----------------------------------------------------------------------|
|-----------------------------------------------------------------------|
|-----------------------------------------------------------------------|

Tremolo Pick this part
|----h--p----------h--p--------p-----^------^--|----------15------------|
|--12-15-12--12--12-15-12----15-12--15-----15--|--12--14--15------------|
|-------------------------14-------Full----Full|--12--14--15--14--------|
|----------------------------------------------|------------------------|
|----------------------------------------------|------------------------|
|----------------------------------------------|------------------------|

|-----------------------------^-----------------------------^-----------|
|--12--14--14---15--14--12---15----15--12------------------15--15--12---|
|--12--14--14---15--14--12--Full----------14--12------~~~~Full--------14|
|------------------------------------------------14--12-----------------|
|-----------------------------------------------------------------------|
|-----------------------------------------------------------------------|

|----------------^----^-----^---------^------------^-|
|---------------15---15----15-----0--15--0--12----15-|
|--12------~~~-Full--Full--Full---0-Full-0--12---Full|
|-----14--12-----------------------------------14----|
|----------------------------------------------------|
|----------------------------------------------------|

Half Time Feel:
|--------------------------------------------------------------------^--|
|---------------------------------------------------------------14--14--|
|---h----------12--12/14-(14)--12--12--12/14----12--11------12--14--14--|
|--7-9--9--9--------------------------------------------/14--------1/2--|
|----7--7--7---10--10/12-(12)--10--10--10/12----10--9-------------------|
|-----------------------------------------------------------------------|

|-----------------------------------------------------------------------|
|----p------------^--15--12--^------------------------------------------|
|--14-12-----12--14---------14----12--~~~--------9---9--12--12/14--12---|
|--------14-----Full------Up&Down----14---(14)-------------------------|
|------------------------------------------------7---7--10--10/12--10---|
|-----------------------------------------------------------------------|

|----------------------------------------------------------^------------|
|---------------~~~~~-----------------------------12--14--14------------|
|--12/14---12--11------/12--12/14---14/16---------12--14--14----14--12--|
|------------------------------------------12--14---------Full----------|
|--10/12---10---9------/10--10/12---12/14-------------------------------|
|-----------------------------------------------------------------------|

|-----------------------------|
|----------^---12-------------|
|-----12--14---12---(12)-----|
|--14----Full-----------------|
|-----------------------------|
|-----------------------------|

WHEW!Thank God thats over with.That was
one major pain doing that solo,so Enjoy!
BLEEDING ME
(Hetfield/Ulrich/Hammett)

Im diggin my way
Im diggin my way to somethin
Im diggin my way to somethin better
Im pushin to stay
Im pushin to stay with somethin
Im pushin to stay with somethin better

Im sowing the seeds
Im sowing the seeds I take
Im sowing the seeds I take for granted
This thorn in my side
This thorn in my side is from the tree
This thorn in my side is from the tree Ive planted
It tears me and I bleed
And I bleed

Caught under wheels roll
I take the leash
Im bleeding me
Cant stop to save my soul
I take the leash thats bleeding me
Im bleeding me
I cant take it
Caught under wheels roll
Oh, the bleeding of me
Of me

Caught under wheels roll
I take the leash
Im bleeding me
Cant stop to save my soul
I take the leash thats bleeding me
Im bleeding me
I cant take it
Caught under wheels roll
Oh, the bleeding of me
Oh, the bleeding of me

I am the beast that bleeds the feast
I am the blood
I am release

Come make me pure
Bleed me a cure
Im caught, Im caught, Im caught under
Caught under wheels roll
I take that leash
Im bleeding me
Cant stop to save my soul
I take the leash thats bleeding me
Im bleeding me
I cant take it
I cant take it
I cant take it
Oh, the bleeding of me

Im diggin my way
Im diggin my way to somethin
Im diggin my way to somethin better
Im pushin to stay
Im pushin to stay with somethin
Im pushin to stay with somethin better
With somethin better