# A B C D E F G H I J K L M N O P Q R S T U V W X Z
IAYTO.ru , .
    # A B C D E F G H I J K L M N O P Q R S T U V W X Z

Limp Bizkit - Take A Look Around Limp Bizkit - Take A Look Around IAYTO.ru. Limp Bizkit - Take A Look Around IAYTO.ru. Limp Bizkit - Take A Look Around .




Limp Bizkit - Take A Look Around

(Fill.1)
(Gtr.1)(Acous.)
Em G C D
1|----------------------------|-----------------------------|
2|----------------------------|-----------------------------|
3|----------0-2^0-------------|-----------0-2^0-------------|
4|-2-2-2--2-------2-2-2-2-0-1-|2-2-2-2--2-------2-2-2-2-0-1-|
5|----------------------------|-----------------------------|
6|----------------------------|-----------------------------|
Em G C D
1|------------------------------|-------------------------------|
2|------------------------------|-------------------------------|
3|------------0-2^0-------------|-----------0-2^0---------------|
4|-2-2-2-2--2-------2-2-2-2-0-1-|2-2-2-2--2-------2-2-2-2-0-1-2-|
5|------------------------------|-------------------------------|
6|------------------------------|-------------------------------|

(Fill.2)

(Gtr.1)(Acous.)
Em G C D
1|----------------------------|-----------------------------|
2|----------------------------|-----------------------------|
3|----------0-2^0-------------|-----------0-2^0-------------|
4|-2-2-2--2-------2-2-2-2-0-1-|2-2-2-2--2-------2-2-2-2-0-1-|
5|----------------------------|-----------------------------|
6|----------------------------|-----------------------------|
Bass & Sintezator
3|----------------------------|--3----------------5---------|
4|-2--------------5-----------|-----------------------------|

(Gtr.1)(Acous.)
Em G C D
1|------------------------------|-------------------------------|
2|------------------------------|-------------------------------|
3|------------0-2^0-------------|-----------0-2^0---------------|
4|-2-2-2-2--2-------2-2-2-2-0-1-|2-2-2-2--2-------2-2-2-2-0-1-2-|
5|------------------------------|-------------------------------|
6|------------------------------|-------------------------------|
Bass & Sintezator
3|------------------------------|--3----------------5-----------|
4|-2----------------5-----------|-------------------------------|

Verse.1(Fill.3)

(Gtr.1)(Acous.)
Em
All the teachin in da world today
1|-15^12----|
2|-------12-|
G
All the little girls fillin up da world today
1|-15^12----|
2|-------11-|
C
When the good comes to bad, the bad comes to good
1|-15^12----|
2|-------10-|
D
But Im a live my life like i should
1|-15^12--------------|
2|-------13--12-12-12-|

Em
Now da critics wanna hit it
1|-15^12----|
2|-------12-|
G
This hit? How we did it, just because they dont get it
1|-15^12----|
2|-------11-|
C
But Ill stay fitted, new era commited
1|-15^12----|
2|-------10-|
D
Now this red cap gets a rap from these critics
1|-15^12--------------|
2|-------13--12-12-12-|

(Fill.2)
But do we always gotta cry
Do we always gotta live inside a lie
Lifes just a blast cuz its movin really fast
So ya better stay on top or lifell kick you in the ass
(Fill.3)
Follow me into a solo
Remember that, kid, so whatcha wanna do
And where ya gonna run when your starin down the cable of my mic
Pointed at yo grill like a gun

Limp Bizkit is rockin the set
Its like russian roulette when youre placin your bet
So dont be upset when youre broke and youre done
Cuz Im a be the one till I jet

Chorus:(fill.4)

Gtr.1(Distortion)
know why you wanna hate me know why you wanna hate me
5|------------------------------|------------------------------| |
6|--0^2--0^2--0^2----0^2--5--7--|--0^2--0^2--0^2----0^2--0--1--| |
|x2
know why you wanna hate me Cuz hate is all the world has even seen lately |
5|------------------------------|----------------------------------------------||
6|--0^2--0^2--0^2----0^2--5--7--|----0^2----0^2----0^2--------0^2----0----1----||

(Fill.5)

Gtr.1(Distortion)
5|--0^2--0^2--0^2----0^2--5--7--|--0^2--0^2--0^2----0^2--0--1--| |
6|--0^2--0^2--0^2----0^2--5--7--|--0^2--0^2--0^2----0^2--0--1--| | x2
Bass |
4|--0^2--0^2--0^2----0^2--5--7--|--0^2--0^2--0^2----0^2--0--1--| |

Gtr.1(Distortion)
5|--x-2--x-2--x-2----x-2--5--7--|--x-2--x-2--x-2----x-2--0--1--| |
6|--x-2--x-2--x-2----x-2--5--7--|--x-2--x-2--x-2----x-2--0--1--| | x2
Bass |
4|--0^2--0^2--0^2----0^2--5--7--|--0^2--0^2--0^2----0^2--0--1--| |
(Fill.2)

Verse.2(Fill.3)(no drums & Bass)Gtr.1 & Sintezator

Does anybody really know the secret
Or the combination for this life and where they keep it
Its kinda sad when you dont know the meaning
But everything happens for a reason
(Fill.3)
I dont even know what i should say
Cuz Im an idiot, a loserA microphone abuser
I analyze every second I exist
Beatin up my mind every second with my fist

And everybody wanna run
Everybody wanna hide from da gun
You can dig a rat through this life if you want
But you cant dig the edge off a knife (no sir)

And now you want your money back
But youre denied, cuz your brains fried from the sack
And there aint nothin i could do
Cuz life is a lesson, youll learn it when youre through

Chorus:(fill.4)
(Fill.5)

(Fill.6)
Gtr.1(Distortion)
5|--2-2----5--7--2-2----0--1--|--2-2----5--7--2-2----0--1--|
6|--2-2----5--7--2-2----0--1--|--2-2----5--7--2-2----0--1--|
Bass
4|--2-2----5--7--2-2----0--1--|--2-2----5--7--2-2----0--1--|

(Fill.7)
Bass & Drums
4|--2-2----5--7--2-2----0--1--|--2-2----5--7--2-2----0--1--| |x2

(Fill.8)

Now... I... know... why...
Bass
4|--2-2----5--7--2-2----0--1--|--2-2----5--7--2-2----0--1--|
Gtr.1(Acous.)
4|---------5-7^5--------------|---------5-7^5--------------|
5|--7-7----------7-7----5--6--|--7-7----------7-7----5--6--|

Now... I... know... why (now I know why you wanna hate me)
Bass
4|--2-2----5--7--2-2----0--1--|--2-2----5--7--2-2----0--1--|
Gtr.1
4|---------5-7^5--------------|---------5-7^5--------------|
5|--7-7----------7-7----5--6--|--7-7----------7-7----5--6--|

Now... I... know... why...
Bass
4|--2-2----5--7--2-2----0--1--|--2-2----5--7--2-2----0--1--| |
Gtr.1(Distortion) |x2
4|---------5-7^5--------------|---------5-7^5--------------| |
5|--7-7----------7-7----5--6--|--7-7----------7-7----5--6--| |

(Fill.9)
Gtr.1(Distortion)
know why you wanna hate me know why you wanna hate me
5|--0^2--0^2--0^2----0^2--5--7--|--0^2--0^2--0^2----0^2--0--1--|
6|--0^2--0^2--0^2----0^2--5--7--|--0^2--0^2--0^2----0^2--0--1--|
Bass
4|--0^2--0^2--0^2----0^2--5--7--|--0^2--0^2--0^2----0^2--0--1--|

know why you wanna hate me Cuz hate is all the world has even seen lately
5|--0^2--0^2--0^2----0^2--5--7--|----0^2----0^2----0^2--------0^2----0----1--|
6|--0^2--0^2--0^2----0^2--5--7--|----0^2----0^2----0^2--------0^2----0----1--|
Bass
4|--0^2--0^2--0^2----0^2--5--7--|----0^2----0^2----0^2--------0^2----0----1--|

Gtr.1(Distortion)
5|--x-2--x-2--x-2----x-2--5--7--|--x-2--x-2--x-2----x-2--0--1--| |
6|--x-2--x-2--x-2----x-2--5--7--|--x-2--x-2--x-2----x-2--0--1--| | x2
Bass |
4|--0^2--0^2--0^2----0^2--5--7--|--0^2--0^2--0^2----0^2--0--1--| |

outro:(Fill.2)

(*):

6- ( "") ""
4-( 5- 6-) , :

Em G A D Eb
(E) 1|-----||-----||-----||-----||-----|
(H) 2|-----||-----||-----||-----||-----|
(G) 3|-----||-----||-----||-----||-----|
(D) 4|-(2)-||-(5)-||-(7)-||-(0)-||-(1)-|
(A) 5|--2--||--5--||--7--||--0--||--1--|
(D) 6|--2--||--5--||--7--||--0--||--1--|

:

Em G A D Eb
(E) 1|-----||-----||-----||-----||-----|
(H) 2|-----||-----||-----||-----||-----|
(G) 3|-----||-----||-----||-(7)-||-(8)-|
(D) 4|-(2)-||-(5)-||-(7)-||--7--||--8--|
(A) 5|--2--||--5--||--7--||--5--||--6--|
(E) 6|--0--||--3--||--5--||-----||-----|