# A B C D E F G H I J K L M N O P Q R S T U V W X Z
IAYTO.ru , .
    # A B C D E F G H I J K L M N O P Q R S T U V W X Z

Evanescence - Going Under Evanescence - Going Under IAYTO.ru. Evanescence - Going Under IAYTO.ru. Evanescence - Going Under .




Evanescence - Going Under

Going Under

! Aop ca o py c aycecoo cye;
! x apca apa acpoea a ooa e eo
! epoap ao o o c ayco, ooey
! apa oa acpoea a y ea (a
! a ooa e caapoo cpo)
! ooe cye ye pac a oo
! aope - oop oxo a , o apc ep
! oo yaae ae a appe e... o
! ca oepe, co 2 paa oa, a eo pa...
! ooe apc a appe oo pa - ocae
! oe aop, o o epoapy ao c a
! appe pa

! Intro.version:
Hm
1|---4---
2|---4---
3|---4---
4|---4---
5|---2---
6|---2---

! Pre-chorus
G Am Hm Em
1|-3-0--2--0---
2|-0-1--3--0---
3|-0-2--4--0---
4|-0-2--4--2---
5|-2-0--2--2---
6|-3-0--2--0---

! Chorus
Hm G D A
1|--2---3--2---0---
2|--3---0--3---2---
3|--4---0--2---2---
4|--4---0--0---2---
5|--2---2--0---0---
6|--2---3--0---0---

! after 2nd chorus
G Fm Hm Am G Fm Hm
1|--3-2---2--0----3--2--2---
2|--0-2---3--1----0--2--3---
3|--0-2---4--2----0--2--4---
4|--0-4---4--2----0--4--4---
5|--2-4---2--0----2--4--2---
6|--3-2---2--0----3--2--2---

! o pe coo paec pe

-

! Tuning
! The guitar is tuned VERY low in this song
! Take it to Drop-D, then down a full step and a half
[Db --------------------------
Ab --------------------------
Eb --------------------------
B --------------------------
Gb --------------------------
B --------------------------]
! ---------------------------------------------------
! Verse
B5
[Db --------------------------
Ab --------------------------
Eb --------------------------
B ---------------------------
Gb -00--0-0------00--0-00----
B --00--0-0------00--0-00----]
! ---------------------------
! Pre-Chorus (transcribed from piano)
[Db ---------------------------------------
Ab ----------------------------------------
Eb ---7-7-7-7----7-7-7-7-------------------
B --3-3-3-3----5-5-5-5----3-3-3-3--2-2----
Gb -----------------------1-1-1-1--0-0-0-=-
B ----------------------------------------]
I'm diving again
! --------------------------
! Chorus
B5 A5 D5 D/B5
[Db --------------------------------
Ab --------------------------------
Eb --------------------------------
B ----------33-3/----------55-----
Gb -0-0--000-11-1/-3-3--333/33-----
B -0-0--000-------3-3--333/55-----
B5 A5 D5 C/D5
Db -------------------------------
Ab -------------------------------
Eb -------------------------------
B ----------33-3----------------
Gb -0-0--000-11-1-3-3--333/33-33-
B -0-0--000-------3-3--333/22-22-]
B5 A5 D5 D/B5
I'm going under
B5 A5 D5 C/D5
Drowning in you
B5 A5 D5 D/B5
I'm falling forever
B5 A5 D5 C/D5
I've got to break through
D5
I'm going under
! ---------------
! Bridge
A5 G#5 B5 B5
[Db --------------------------------------------
Ab --------------------------------------------
Eb --------------------------------------------
B --3333-3333--2222-2222----------------------
Gb --1111-1111--0000-0000--0000-0000-0000-0000-
B ------------------------0000-0000-0000-0000-]
A5
So go on and scream
G#5
Scream at me
B5
So far away {so far away}
B5
I won't be broken again
A5 G#5
I've got to breathe
B5 (guitar solo)
I can't keep going under
! --------------
! Solo
! (needs some work but this will play over the rhythm guitar (chorus riff))
[Db ---------------------------------------
Ab ------------------6p5p3-5p3------------
Eb ----------------------------3p2-5-5h7--
B --------3h5p3h7~-----------------------
Gb -----3h5-------------------------------
B --5h7----------------------------------

Db -------------------------------------
Ab --10^10-10-10~-8---------------------
Eb -----------------10-10h12p10-9-9p7~--
B -------------------------------------
Gb -------------------------------------
B -------------------------------------]

-

! ec ye paec o , o ye oopa,
! pocya aycecy epc o ec.

Hm
Now I will tell you what I 've done for you
Hm
50 thousand tears I've cried
Hm
Screaming deceiving and bleeding for you
Hm
And you still won't hear me
Don't want your hand this time I 'll save myself
Maybe I'll wake up for once
Not tormented daily defeated by you
Just when I thought I'd reached the bottom
G A Em
I'm dying again
Em Hm G D
I'm going under
A Hm G D
Drowning in you
A Hm G D
I'm falling forever
A Hm G D
I've got to break through
A Hm
I'm going under
! 2 ye pe e ee.
Hm
Blurring and stirring the truth and the lies
So I don't know what's real and what's not
Always confusing the thoughts in my head
So I can't trust myself anymore
I 'm dying again
I 'm going under
Drowning in you
I'm falling forever
I've got to break through
A G
So go on and scream
F# Hm
Scream at me I 'm so far away
Hm7 G
I won't be broken again
F# Hm
I.ve got to breathe I can't keep going under

! pe