# A B C D E F G H I J K L M N O P Q R S T U V W X Z
IAYTO.ru , .
    # A B C D E F G H I J K L M N O P Q R S T U V W X Z

- p- - p- IAYTO.ru. - p- IAYTO.ru. - p- .




- p-



DDT - ףp-

chordsby: Vladimir Mikhailov

p D-FlashMan

:
|------------
|---1--------
|------2-----
|------2-----
|------------' style='color=#000066'>E D*
|---2------
|---2------
|---2------
|----------
|----------' style='color=#000066'>A - p p ,
chord: D* 0 3 2 0 0 2
p p
,, p Rock`n`roll
,
p y,

p p, p
pp, p, y,
,
-

p p: 2|--(5)--- -
3|----(5)-

$p 1
yy

pp, p yy
.......

pp:
1|-------------------0---------0--
2|-3/5-5~~-53-0---------3-2------
3|---------------1---------------- 2 p
4|-----------------2---2-----2----
5|--------------------------------
6|--------------------------------
p, py y
p p
p y, py
p y py

, p,
, ,
y, p p
,

p 1

p 2:

|---1------
|----------
|-----2----
|-------3--
|-------3--' style='color=#000066'>C
|-2--4-----
|-2--4-----
|-2--4-----
|-2--------
|-2--------' style='color=#000066'>H
|------3---
|----------
|----------
|----------
|----2-----
|------3---' style='color=#000066'>G
|---2------
|---2------
|---2------
|----------
|----------' style='color=#000066'>A
׳
׳

, p p
y ? ?
y . . p
, y

y p p p
, , p, Rock`n`roll
p, p,
- y

1-2 p. p 3-4 p 5-6 p
1|------------------|---7--------5---|---10-----10--9-------
2|---(5)------------|------8---------|-------8---------10--- 2 p
3|-----(5)----------|---------7------|---------------------- py
4|------------------|----------------|----------------------
5|------------------|----------------|----------------------
6|------------------|----------------|----------------------
p
yy
y p y, p p
p , , p
p py p, - p p
p, p y
py , p, y y

׳
׳

p p: Vladimir Mikhailov 2:5011/78.600
yy p, p, p y ___|