# A B C D E F G H I J K L M N O P Q R S T U V W X Z
IAYTO.ru , .
    # A B C D E F G H I J K L M N O P Q R S T U V W X Z

- - IAYTO.ru. - IAYTO.ru. - .




-


Intro: apa 1
F C F
[E||--------------------------|--5--------5-----------5--|
B||--6--------6--8--------8--|-----6--------6-----8-----|
G||*-------5-----------5-----|--------5--------5--------|
D||*----7-----------5--------|--------------------------|
A||--8-----------7-----------|--8-----------------------|
E||--------------------------|--------------------------|

Bb D7 Eb6
--6--------6--5--------5--|--------------------------|
--------6--------7--------|--8--------8--------8-----|
-----7--------------5-----|-----5--------5--------5--|
--8-----------------------|--------8--------8--------|
--------------5-----------|--6-----------------------|
--------------------------|--------------------------|

Bb A7 Dm7
--------------------5-----|-----------------------5--|
--6--------6-----------8--|--6--------6--------8-----|
--------7--------6--------|-----5--------5-----------|
-----8--------7-----------|--------7--------7--------|
--------------------------|--5-----------------------|
--------------------------|--------------------------|

|--- 1 ----|
Gm C
--8--6--------------------|--------------------------||
-----------8-----6--------|--5-----6-----7-----8-----||
--------7-----7-----7-----|-----5-----5-------------*||
--5--------------------5--|-------------------------*||
--------------------------|--3-----5-----6-----7-----||
--------------------------|--------------------------||

|--- 2 ----| end of Intro
Gm C
--8--6--------------------|---------------8---------||
-----------8-----6--------|---------------8---------||
--------7-----7-----7-----|--9------------9---------||
--5--------------------5--|-----10--------10--------||
--------------------------|---------10----10--------||
--------------------------|--8------------8---------||]

C aoacpo a o ay o opao ee cpa
(oa a eoo pye yy), o e eo oe oo.

apa 2 (coo Intro)
[E--------------5--6--|
B--------------------|
G--------------------|
D--------------------|
A--------------------|
E--------------------|

F C F Bb D7
||--8--------8~-----|-------------------5--|--5h6-------5b(6)r5----|
||------------------|--6----------6--8-----|-----------------------|
||------------------|----------------------|-----------------------|
||------------------|----------------------|-----------------------|
||------------------|----------------------|-----------------------|
||------------------|----------------------|-----------------------|

Eb6 Bb A7 Dm7
-----------------------|--------------------|-------------------5--|
--8----------8h10p8p6--|--6--------5--------|--6----------6--8-----|
-----------------------|--------------------|----------------------|
-----------------------|--------------------|----------------------|
-----------------------|--------------------|----------------------|
-----------------------|--------------------|----------------------|

Gm C
--5h8-6-----------------|------------------||
-----------8----6----5--|------------------||
------------------------|------------------||
------------------------|------------------||
------------------------|------------------||
------------------------|------------------||]

F C F Bb D7 Gm
aa papoe ce ae xo oy ey,
Bb C F C
caaa, ae - oa e a.
F C F Bb D7 Gm
pece oo, oca c coo o ec.
Bb C F D7add13- D7
A oo c aoa oyc ee - yc e.

Eb C F D7add13- D7
ooo ox oocax y co-eo,
Eb C
ooo ox oocax...

aa paoe ocep copee xo oy ey,
caaa, o yo ea eo a.
ye ce y o paccaa py pyy c,
A oo a coe co ec epa a - ye.

ooo ox oocax y co-eo,
ooo ox oocax...

aa paco e cace xo oy o,
caaa e, o o o ocxo.
ae cx, o o, a a xopoo c oo,
A oo ay e aea ooe - e.

ooo ox oocax y co-eo,
ooo ox oocax...
ooo ox oocax y co-eo...
ooo ox oocax...

(A o ec, o, pae o ca aep opecp
o ypaee A. Cepepoa, o oopo acao yee.
epeo eo a oe eyoo. oe a-y
oo pacy ap coo-ap.)

Aop
[E--|-o-|-o-|---|---|--
B--|-o-|---|-o-|---|--
G--|-o-|---|---|---|--
D--|-o-|---|-o-|---|--
A--|-o-|---|---|---|--
E--|---|---|---|---|--]
V VII