# A B C D E F G H I J K L M N O P Q R S T U V W X Z
IAYTO.ru , .
    # A B C D E F G H I J K L M N O P Q R S T U V W X Z

- - - - IAYTO.ru. - - IAYTO.ru. - - .




- -


= [5454xx]
= [4343xx]

Intro:

Am Am/G Dm E7
e a oe e a a yoe,
Am Am/G Dm E7
ao oa-o pa ypo x aa o eo,
Dm Am Gbdim E7
A a cap ao ope e py capa a,
Dm Am Gbdim Hbdim Am
o-o xp oo aae a oo.

e apae a ea oe ae,
oe ae a ocoe apa oap ae,
A c coo p ce a cee co,
o-o xp oo aae a oo.

Solo

oopee cya - oco poe o ya,
Ho e yaac ea ya ee ocaac,
eep oo a ye oya a,
o-o xp oo aae a oo.

Outro

Solo: [E ------------------------------------------------
B -------------------------------3--1--1----0-----
G ---2----4--2-4-5------2-4-5---------------------
D ------------------------------------------------
A ------------------------------------------------
E ------------------------------------------------

E ------------------------------------------------
B -------------------------------3--1-4^5---------
G ---2----4--2-4-5------2-4-5---------------------
D ------------------------------------------------
A ------------------------------------------------
E ------------------------------------------------

E ------------------------------------------------
B --4^5----3--------------------------------------
G ------------5^-4----4--2--2----5--2--2----1-----
D ------------------------------------------------
A ------------------------------------------------
E ------------------------------------------------

E ---------------------------------------------------------
B --4^5----3-----------------------------------------------
G ------------5^-4----4--2--2----5--2--2----1----2---------
D ---------------------------------------------------------
A ---------------------------------------------------------
E ---------------------------------------------------------]

Outro: [E --------------------------------------------
B ---5--------5--------5--6--3--1--1----0-----
G -------------------------------------------- 2 paa
D -------------------------------------------- /
A -------------------------------------------- /
E -------------------------------------------- /

E --------------------------------------------
B ---5--------5--------5--6--3--1--1----0-----
G --------------------------------------------
D --------------------------------------------
A --------------------------------------------
E --------------------------------------------

E --------------------------------------------
B --------------------------------------------
G --------2----------2----------2-------------
D -2^3-------3--2-------2--1-------1--0-------
A --------------------------------------------
E --------------------------------------------

E -------------------------5--------4--------0----------3-4^5-------
B -------------------------4--------3--------1------3-5-------------
G --------2----------2-----5--------4--------2----5-----------------
D -2^3-------3--2-------2--4--------3--------2----------------------
A ------------------------------------------------------------------
E ------------------------------------------------------------------]