# A B C D E F G H I J K L M N O P Q R S T U V W X Z
IAYTO.ru , .
    # A B C D E F G H I J K L M N O P Q R S T U V W X Z

- - - - IAYTO.ru. - - IAYTO.ru. - - .




- -


o o apa ao cay. opa c acce a "paoe".
Capac oopa c ooc o o, o o cea yaaoc, . a
e p ap ca pa. Intro, o-oey, oe oxoe a opa,
a o ocoa ea c eoop eooc, o ce pao y paco.

Intro: [e------1------------6--------------------1-------------6--------|
h--2-----------2------5---5-----1-----------------2------5---5--|
g----3---3---3---3------6-----2---2----3---3----3---3------6----|
d--4----------------5----------------4-----------------5--------|
a----------1----------------------------------1-----------------|
e---------------------------1-----------------------------------|

--5----5------------1--|
----4----4------2------|
--------------3---3----|
--4----3---------------|
------------1----------|
-----------------------|]

Ca coco

[------1--------1-------------------------1------------|
------------------------1-----------------------------|
----3---3----3---3----3---3------------2---2----------|] (*)
[------------------------------------------------------|
--1---------------------------------------------------|
-----------4--------2----------------1----------------|]
e a oe e a,a yoe...
o co "...a a cap ao" oope (*)

[-------1-------------------6-----------------1----------|
-----------------2-----------5---5----------------------|
-----3---3-----3---3-----------6-----------2---2--------|
--4------------------------5----------------------------|
-------------1------------------------------------------|
-----------------------------------------1--------------|]
..a a cap ao ope e py capa a

[------1-----------1-------6--------5----5------------1--|
----------------------------5---5----4----4------2------|
----3---3-------3---3---------6----------------3---3----|
--4-----------------------5--------4----3---------------|
--------------1------------------------------1----------|
--------------------------------------------------------|]
o-o xp oo aae a oo.