# A B C D E F G H I J K L M N O P Q R S T U V W X Z
IAYTO.ru , .
    # A B C D E F G H I J K L M N O P Q R S T U V W X Z

- - - - IAYTO.ru. - - IAYTO.ru. - - .




- -


a oe xopoo pac aopa, pac c
poco pepaco.

Intro:

Am Am/G
e a oe
F E
e a a yoe,
Am Am/G
ao oa-o
F E
Pa ypo x aa o eo...
F Am
A a cap ao
Gbdim E
ope e py e a -
Dm Am
o-o xp oo
Gbdim Hbdim Am
Haae a oo...

e apae a ea oe ae,
oe ae a ocoe apa oap ae...
A c coo p ce a cee co -
o-o xp oo aae a oo...

Solo: < Am>
[E||----------------------------------|
B||----0~1~0---0-1----0-1--0---------|
G||--2-------2------2--------2-2-1---|
D||----------------------------------|
A||----------------------------------|
E||----------------------------------|

E||------------------------------0---|
B||----0~1~0---0-1----0-1-3--1-3-----|
G||--2-------2-----------------------|
D||----------------------------------|
A||----------------------------------|
E||----------------------------------|

E||-----------------------------------------------------------|
B||--0-~1-0----------------------0-~1-0-----------------------|
G||---------3-1--0-----1----------------3-1--0-----1----------|
D||----------------2-2--2-2-1------------------2-2--2-2-1-2---|
A||-----------------------------------------------------------|
E||-----------------------------------------------------------|]

oopee cya, oco poe o ye,
Ho e yaac pya ya, ee ocaoc...
eep oo a ye oya a -
o-o xp oo aae a oo...

Outro: < Am>
[E||---0----0----0-1-----------|
B||-----------------3-1-1-0---|
G||-----2----2----------------|
D||---------------------------|
A||---------------------------|
E||---------------------------|

E||---0----0----0-1-----------|
B||-----------------3-1-1-0---|
G||-----2----2----------------|
D||---------------------------|
A||---------------------------|
E||---------------------------|

E||--------------------------------|
B||--------------------------------|
G||-----2------2------2------------|
D||--3----3-2----2-1----1-0--------|
A||---------------------------3-2--|
E||--------------------------------|

E||-------------------------------------------0-|
B||---------------------------------------------|
G||-----2------2------2---------------0^1-------|
D||--3----3-2----2-1----1-0---------2-----2-----|
A||---------------------------3-2-0---------2---|
E||---------------------------------------------|]

~ - oe cp a epexo
^ - cp a epexo

Gbdim Hbdim
[E ----5------4---------
B ----4------3---------
G ----5------4---------
D ----4------3---------
A ---------------------
E ---------------------]