# A B C D E F G H I J K L M N O P Q R S T U V W X Z
IAYTO.ru , .
    # A B C D E F G H I J K L M N O P Q R S T U V W X Z

Bic Runga - Change Of Heart Bic Runga - Change Of Heart IAYTO.ru. Bic Runga - Change Of Heart IAYTO.ru. Bic Runga - Change Of Heart .




Bic Runga - Change Of Heart


! Up the Irons!
-
Here I sit, alone at a window
The rain falls down
On the class in the cold

All my life, Ive been waiting for a moment
It never came, maybe never will
Ah, sometimes I dont know

Those days are gone
Lord I hide where I just cant say
Im still there, catching your tears
As they fall to the ground

You, youre walking away
You couldnt stay
You need a change of heart
You, youre walking away
You couldnt stay
You need a change of heart

Trees are bare, the earth it is hard
I wait for winter, soft winter and snow

Those days are gone
Now I hide where I just cant say
Ill be there, catching your tears
Before they fall to the ground

You, youre walking away
You couldnt stay
You need a change of heart
You, youre walking away
You couldnt stay
You need a change of heart

And I know, wherever you go
Ill be around, yeah
Ill be there, catching your tears
Before they fall to the ground, yeah

Those days are gone
Now I hide where I just cant say
Im still there, watching your tears
As they fall to the ground

You, youre walking away
You couldnt stay
You need a change of heart
You, youre walking away
You couldnt stay
You need a change of heart

You, youre walking away
You couldnt stay
You need a change of heart
Oh, oh child.
You need a change of heart
Change of heart
Change of heart

Author/Artist: Bruce Dickinson
Title: Change of Heart
Album: Balls to Picasso
Transcribed by: Swen O. Heiland
Email: sonofagun@t-online.de

This one is a little bit simplified (originally, its played by a piano)

-5--5--7--8--7--5-|-7--7-8-----------|------------------|-5--7--8--7--8---|---
------------------|--------6---5h6-8-|-6--5-----5--6--5-|-----------------|---
------------------|------------------|-------7----------|-----------------|---
------------------|------------------|------------------|-----------------|---
------------------|------------------|------------------|-----------------|---
------------------|------------------|------------------|-----------------|---
Intro Melody

-10--10h12--8-----|-7h8-7-5----------|----------------------------------------
------------------|---------8-6-5----|----------------------------------------
------------------|---------------7--|----------------------------------------
------------------|------------------|----------------------------------------
------------------|------------------|----------------------------------------
------------------|------------------|----------------------------------------


-5--5----5--------|-1--1----1--------|-3--3----3--------|-5--5----5-------|---
-5--5----5--------|-2--2----2--------|-4--4----4--------|-5--5----5-------|---
-7--7----7--------|-3--3----3--------|-5--5----5--------|-7--7----7-------|---
-7--7----7--------|-3--3----3--------|-5--5----5--------|-7--7----7-------|---
-5--5----5--------|-1--1----1--------|-3--3----3--------|-5--5----5-------|---
Verse [2x] (very freely

-1--1----1--------|-1--1----1--------|-5--5----5--------|-3--3----3-------|---
-1--1----1--------|-1--1----1--------|-5--5----5--------|-3--3----3-------|---
-2--2----2--------|-2--2----2--------|-5--5----5--------|-4--4----4-------|---
-3--3----3--------|-3--3----3--------|-7--7----7--------|-5--5----5-------|---
-3--3----3--------|-3--3----3--------|-7--7----7--------|-5--5----5-------|---
-1--1----1--------|-1--1----1--------|-5--5----5--------|-3--3----3-------|---


-----1------1-----|-----5-----5------|-----1-----1------|-2-------3-------|---
-----1------1-----|-----5-----5------|-----1-----1------|-3-------0-------|---
-----2------2-----|-----5-----5------|-----2-----2------|-2-------0-------|---
-----3------3-----|-----7-----7------|-----3-----3------|---------0-------|---
---3------3-------|---7-----7--------|---3-----3--------|---------2-------|---
-1------1---------|-5-----5----------|-1-----1----------|---------3-------|---
Bridge

-0---3------------|-----------------------------------------------------------
-0---0------------|-----------------------------------------------------------
-2---0------------|-----------------------------------------------------------
-2---0------------|-----------------------------------------------------------
-1---2------------|-----------------------------------------------------------
-0---3------------|-----------------------------------------------------------
before Chorus

------------------|-1----------------|------------------|---------3-------|---
-1----------------|-1----------------|-1----------------|-1-------0-------|---
-2----------------|-2----------------|-2----------------|-0-------0-------|---
-2----------------|-3----------------|-2----------------|-2-------0-------|---
-0----------------|-3----------------|-0----------------|-3-------2-------|---
------------------|-1----------------|------------------|---------3-------|---
Chorus [2x]

-7-7-7--8-7--5----|---5--------------|----------------------------------------
------------------|-8---8-6--8-6--5--|----------------------------------------
------------------|------------------|----------------------------------------
------------------|------------------|----------------------------------------
------------------|------------------|----------------------------------------
------------------|------------------|----------------------------------------
Interlude, afterwards back to Verse ...
#----------------------------------PLEASE NOTE--------------------------------#
#This file is the authors own work and represents their interpretation of the#
#song. You may only use this file for private study, scholarship, or research.#
#-----------------------------------------------------------------------------#
#-- File created with Instab - http://www.pconline.com/~smcarey/instab.html --#
#-----------------------------------------------------------------------------#

Author/Artist: Bruce Dickinson
Title: Change of Heart - Solo
Album: Balls to Picasso
Transcribed by: Swen O. Heiland
Email: sonofagun@t-online.de

-8-------8---7-------7---5v-----------|-------------------------------------|-
-----5-----------5--------------------|---------5---6b7r6---6v--------------|-
--------------------------------------|-----5-------------------------------|-
--------------------------------------|-7-----------------------------------|-
--------------------------------------|-------------------------------------|-
--------------------------------------|-------------------------------------|-
Clean Guitar

--------------------------------------|-----5-------7-------5-------8-------|-
---------------------7b9r7------------|-5-------5-------5-------5-----------|-
-7b9r7v----7p5--7-7--7b9r7-------5^---|-------------------------------------|-
----------------------------7-7-------|-------------------------------------|-
--------------------------------------|-------------------------------------|-
--------------------------------------|-------------------------------------|-


-----5----10b12r10v-------------------|-12-13-15-17-19b20--19b20r-19-17-13v-|-
-5------------------------------------|-------------------------------------|-
--------------------------------------|-------------------------------------|-
--------------------------------------|-------------------------------------|-
--------------------------------------|-------------------------------------|-
--------------------------------------|-------------------------------------|-


--------------------------------------|-------------------------------------|-
-15b17-15b17-15-13-15-13-12-13-12-----|-12-13-------------------------------|-
----------------------------------14--|-------------------------------------|-
--------------------------------------|-------15----------------------------|-
--------------------------------------|-------------------------------------|-
--------------------------------------|-------------------------------------|-
(Melody after Vocals restart)

-13b15-13b15-13b15-13-12-13b15-13-12--|-10-13b15v---------------------------|-
--------------------------------------|-------------------------------------|-
--------------------------------------|-------------------------------------|-
--------------------------------------|-------------------------------------|-
--------------------------------------|-------------------------------------|-
--------------------------------------|-------------------------------------|-


--------------------------------------|-------------------------------------|-
--------------------------------------|-------------------------------------|-
--------------------------------------|-------------------------------------|-
-7----7-----5-------------7-----------|-3----3-------2------3---------5-----|-
-7----7-----5-------------7-----------|-3----3-------2------3---------5-----|-
-5----5-----3-------------5-----------|-1----1-------0------1---------3-----|-
Chords used for Rythm (originally played by Bass Guitar)
Music Corner